Добро пожаловать в форум, Guest  >>   Войти | Регистрация | Поиск | Правила | В избранное | Подписаться
Все форумы / Microsoft SQL Server Новый топик    Ответить
 Запрос и фиксированный список  [new]
VIT2708
Member [заблокирован]

Откуда: Киев
Сообщений: 1387
Есть таблица tblTitles
id ------- title
1 -----название1
2 -----название2
3 -----название3
4 -----название4

есть таблица с данными tblData
id ----- idtblTitles ---- value ----- date
1 --------- 1 ------------5----------01.01.2000
1 --------- 1 ------------5----------01.01.2000
1 --------- 1 ------------5----------01.01.2000
1 --------- 1 ------------5----------01.01.2000
1 --------- 1 ------------5----------01.01.2000
1 --------- 1 ------------5----------01.01.2000
1 --------- 1 ------------5----------01.01.2000
19 авг 13, 13:20    [14725298]     Ответить | Цитировать Сообщить модератору
 Re: Запрос и фиксированный список  [new]
VIT2708
Member [заблокирован]

Откуда: Киев
Сообщений: 1387
VIT2708,

извините не дописал сейчас доделаю
19 авг 13, 13:21    [14725302]     Ответить | Цитировать Сообщить модератору
 Re: Запрос и фиксированный список  [new]
VIT2708
Member [заблокирован]

Откуда: Киев
Сообщений: 1387
VIT2708,

Есть таблица tblTitles
id ------- title
1 -----название1
2 -----название2
3 -----название3
4 -----название4

есть таблица с данными tblData
id ----- idtblTitles ---- value ----- date
1 --------- 1 ------------1----------01.01.2000
1 --------- 2 ------------2----------01.02.2000
1 --------- 2 ------------3----------01.03.2000
1 --------- 1 ------------4----------01.04.2000
1 --------- 3 ------------5----------01.01.2000
1 --------- 3 ------------6----------01.01.2000
1 --------- 4 ------------7----------01.01.2000

Мне необходимо выдавать данные в таком виде
tblTitles.title ---- Conut(tblData.value)
название1 -----------1
название2 -----------5


Если нет значений то мне необходимо выдать список вот так
tblTitles.title ---- Conut(tblData.value)
название1 -----------0
название2 -----------0


Подскажите как такое сделать? знаю что это делается с помощью подзапросов но что то не получается

Спасибо
19 авг 13, 13:25    [14725333]     Ответить | Цитировать Сообщить модератору
 Re: Запрос и фиксированный список  [new]
Glory
Member

Откуда:
Сообщений: 104760
VIT2708
Подскажите как такое сделать?

Изучить LEFT JOIN
19 авг 13, 13:26    [14725340]     Ответить | Цитировать Сообщить модератору
Все форумы / Microsoft SQL Server Ответить